Sweet Emotion -nicht gesucht-

mainzel99

mainzel99

Well-Known Member
Bassix
ß68.582
Ich HABE die Noten [;-)][:D] ...würd aber gern mal jemand draufgucken lassen
Basis ist die Ur-Version, wie sie auf der Vinyl-"Toys in the Attic" drauf ist, orientiert hab ich mich an Ed Friedlands Transkription (Bassplayer März 1993 glaub ich)

Von all den Nasen zB auf Utube ist er einer der ganz wenigen die den Anfang richtig spielen...aber bei einem Teil bin ich mir bei ihm schwer unsicher.

Frage - wie kann ich denn mein "Geschreibsel" hier gefahrlos (fukkinGEMA) ...zeigen... zum vergleichen? kanns leider nicht als ASCII exportieren, aber als .pdf oder .jpg .

Der Friedland dito
 
Masl

Masl

Well-Known Member
Bassix
ß12.157
Zitat:Original erstellt von: mainzel99

Ich HABE die Noten [;-)][:D] ...würd aber gern mal jemand draufgucken lassen
Basis ist die Ur-Version, wie sie auf der Vinyl-"Toys in the Attic" drauf ist, orientiert hab ich mich an Ed Friedlands Transkription (Bassplayer März 1993 glaub ich)

Von all den Nasen zB auf Utube ist er einer der ganz wenigen die den Anfang richtig spielen...aber bei einem Teil bin ich mir bei ihm schwer unsicher.

Frage - wie kann ich denn mein "Geschreibsel" hier gefahrlos (fukkinGEMA) ...zeigen... zum vergleichen? kanns leider nicht als ASCII exportieren, aber als .pdf oder .jpg .

Der Friedland dito
Ich hätte das als .jpg bei einem Hoster hochgeladen. Ist wohl der beste Weg.

Aber meinst du, eine Transkiption von Friedland ist falsch?
 
mainzel99

mainzel99

Well-Known Member
Bassix
ß68.582
Nene - nicht falsch - ich probiers mal annerschd:




G||----------12-------14---------------------
D||------------------------------12-------11-
A||--12--12-----12-12----12-12------12-12----
E||------------------------------------------

^^Intro - das passt.




E E S E S E E E E
-----------------------------|
--7-----7------7------7------|
-----0----0--0---------------|
------------------/5-----/5--|

E E S E S E E E E
-----------------------------|
--7-----7------7------7------|
-----0----0--0---------------|
------------------/5-----/5--|


S S E S E S S E S E E
-----------------------------||
-----------------------------||
--5-3------------------------||
------5--2-2--2-3-3--3-4--5--||

^^Ist das alles?

G||-----------------------------||
D||-----------------------------||
A||--------5----7---7-----------||
E||--0--0-----0---------5-0-3-4-||

^^ Outro - ist das alles?




Ich bild mir ein meine Öhrchens hören da mehr während der Strophen, und auch beim Outro? ... oder irre ich?

 
-OTTO-

-OTTO-

www.batsch.de
Bassix
ß802
Zitat:Original erstellt von: mainzel99

Nene - nicht falsch - ich probiers mal annerschd:




G||----------12-------14---------------------
D||------------------------------12-------11-
A||--12--12-----12-12----12-12------12-12----
E||------------------------------------------

^^Intro - das passt.




E E S E S E E E E
-----------------------------|
--7-----7------7------7------|
-----0----0--0---------------|
------------------/5-----/5--|

E E S E S E E E E
-----------------------------|
--7-----7------7------7------|
-----0----0--0---------------|
------------------/5-----/5--|


S S E S E S S E S E E
-----------------------------||
-----------------------------||
--5-3------------------------||
------5--2-2--2-3-3--3-4--5--||

^^Ist das alles?

G||-----------------------------||
D||-----------------------------||
A||--------5----7---7-----------||
E||--0--0-----0---------5-0-3-4-||

^^ Outro - ist das alles?




Ich bild mir ein meine Öhrchens hören da mehr während der Strophen, und auch beim Outro? ... oder irre ich?
ich spiel das so:

Intro:


G ----------12-------14----------------------
D --------------------------12---------11--12
A--12--12--------12--------------12----------
runter aufs D sliden

D--------------7--------------------
A-----------------------------------
E-----5-------------5---5-5---3--5




D-----------------------------
A-5-3------------------------
E-----5--2-2--2-3-3-3-3-4-4--5

D-----------------------------
A--------5----7--------------
E--0--0-----0---------5-0-3-5-

greets

 
Zuletzt bearbeitet:
schubi_neu_38615

schubi_neu_38615

tiefer ist geiler
Bassix
ß74.806
Zitat:Original erstellt von: mainzel99

Nene - nicht falsch - ich probiers mal annerschd:




G||----------12-------14---------------------
D||------------------------------12-------11-
A||--12--12-----12-12----12-12------12-12----
E||------------------------------------------

^^Intro - das passt.




E E S E S E E E E
-----------------------------|
--7-----7------7------7------|
-----0----0--0---------------|
------------------/5-----/5--|

E E S E S E E E E
-----------------------------|
--7-----7------7------7------|
-----0----0--0---------------|
------------------/5-----/5--|


S S E S E S S E S E E
-----------------------------||
-----------------------------||
--5-3------------------------||
------5--2-2--2-3-3--3-4--5--||

^^Ist das alles?

G||-----------------------------||
D||-----------------------------||
A||--------5----7---7-----------||
E||--0--0-----0---------5-0-3-4-||

^^ Outro - ist das alles?




Ich bild mir ein meine Öhrchens hören da mehr während der Strophen, und auch beim Outro? ... oder irre ich?
In dem Pre-Chorus hören meine Ohren folgendes:

G||--------------------------------||
D||--------------------------------||
A||--5-3---------------------------||
E||------5--0-2--2-3-3--3-4--5--||

Und mich beschleicht das Gefühl, dass da ein Teil (C-Part zwischen zwei Pre-Chori) fehlt ... [...]
 
 

Oben Unten