Bass intro Bastard Nations von Overkill


ringo667
ringo667
Active Member
Beiträge
222
Bassix
ß8.643


Ich suche die Tabs zu dem Bass Into dieses Stückes,
es gibt auf youtube zwar ein nettes Cover davon,
aber die Tabs oder Noten dazu habe ich keine gefunden.
 
ringo667
ringo667
Active Member
Beiträge
222
Bassix
ß8.643
Wenn du so fragst wäre beides nicht schlecht :-)

...aber es geht mir in erster linie um das genaue Nachspielen.
 
fiss-a-wiss
fiss-a-wiss
Well-Known Member
Beiträge
3.235
Ort
Zwischen Ulm und Stuttgart
Bassix
ß92.239
So wie ich das höre, kommt als Erstes ein D-Dur-Akkord (mit A als tiefstem Ton - also die sogenannte zweite Umkehrung) und dann ein paar Umspielungs-Töne; gefolgt von A-Dur:

--11------------11--14---12---11-----9---------------9--------------9--
--12-------12-------12---12---12--------11------11----11------11-----
--12--12---------------------------------------12--------------12--------
-------------------------------------------------------------------------------


hilft das so weiter? oder ist das soweit eh schon klar?
(weiß ja nicht, wo du da stehst)
 
fiss-a-wiss
fiss-a-wiss
Well-Known Member
Beiträge
3.235
Ort
Zwischen Ulm und Stuttgart
Bassix
ß92.239
dann ein H-Moll-Barree, nach ein paar Zwischentönen gefolgt von A-Dur

--7-------7----11-----8----7-------6------------------
--9-----9------9-----11----9---------7-----------(7)--
--9---9-----------------------------------7----0-------
--7-----------------------------------------------------

der letzte in der Klammer soll ein Flageolett-Ton sein

soweit mal (hatte gerade Zeit) und gib mal Bescheid, ob dir das so von Nutzen ist
 
fiss-a-wiss
fiss-a-wiss
Well-Known Member
Beiträge
3.235
Ort
Zwischen Ulm und Stuttgart
Bassix
ß92.239
Wow, Danke!

Das hilft mir schon seh weiter

das freut mich!

Die nächsten drei Griffe sind D, Em und F#m (hier nur die Griffbilder):

--11-----12-----14----
--12-----14-----16----
--12-----14-----16----
--10-----12-----14----

dann C, Hm (kleinen "Schlenkerchen" auf der G-Saite :-) ) und A

--9------7------6-------
--10-----9------7----------
--10-----9------7----------
--8------7------5---------
 
 

Oben Unten