Sade -Sally

mainzel99

mainzel99

Well-Known Member
Bassix
ß68.576


hat da jemand was von?-die Grundfigur war/ist kein Thema ...aber was er sonst so noch spielt -ich kriegs nicht zusammen [V]
 
dreizehnbass

dreizehnbass

baut....
Bassix
ß56.906
schnell mal reingehört:

5.bund (E- Saite) das A dann die quinte 7.bund (A- Saite) (E)
danach 4.bund das B auf der G- Saite, hammer on auf den 5.bund G- saite (C), danach wieder das E am 7.bund dann folgt ein D am 5. (A- saite)

dann wieder das E, nochmal E, dann G am 5. bund D-saite, dann A am 7.Bund D-saite

dann gehts wieder von vorne los.

müsste eigendlich stimmen. was dann dazwischen noch passier müsste man noch genauer reinhören...
 
dreizehnbass

dreizehnbass

baut....
Bassix
ß56.906
ich sollte mal genauer lesen [:I]

die grundfigur ist eh klar.

dazwischen würde ich mal das probieren:

Fis auf der e-saite
gis auf der a saite (quinte zur fis) dann
fis auf der d-saite
gis auf der a saite
dann wieder Fis auf der e-saite

dann F auf der e-saite
danach c auf der a saite und dann
f auf der d - saite
dann ein slide auf die das g auf der d- saite (2bünde höher)
dann wieder f auf der d- saite

dann gehts wieder mit der grundfigur weiter

ohne gewähr
[:-)]
 
Zuletzt bearbeitet:
mainzel99

mainzel99

Well-Known Member
Bassix
ß68.576


öh... so?

E E E E E E E E E E
G||-------------------|-----------------|
D||---------4---------|--------3--5--3--|
A||-----11-----11-----|-----3-----------|
E||--2-------------2--|--1--------------|

oder so?


E E E E E
----------------------|
----------16----------|
------11------11------|
--14--------------14--|


E E E E E
----------------------||
----------15--17--15--||
------15--------------||
--13------------------||




[?]
 
Zuletzt bearbeitet:
dreizehnbass

dreizehnbass

baut....
Bassix
ß56.906
Zitat:Original erstellt von: mainzel99



öh... so?

E E E E E E E E E E
G||-------------------|-----------------|
D||---------4---------|--------3--5--3--|
A||-----11-----11-----|-----3-----------|
E||--2-------------2--|--1--------------|

oder so?


E E E E E
----------------------|
----------16----------|
------11------11------|
--14--------------14--|


E E E E E
----------------------||
----------15--17--15--||
------15--------------||
--13------------------||




[?]
der Sprung von 2 auf 11 ist viel zu kompliziert.



E E E E E E E E E E
G||-----1-------1-----|-----------------|
D||---------4---------|--------3--5--3--|
A||----------- ------|-----3-----------|
E||--2-------------2--|--1--------------|

so habe ich es gehört:
bevor es runter geht geht mal rauf in den 9.bund

so ungefähr
E E E E E E E E E E
G||----------------9h11---------|
D||---------11-----------11-9---|
A||---9---------------------------|
E||--------------------------------|

E E E E E E E E E E
G||-------------------|-----------------------|
D||---------4---------|--------3--/--5--3---|
A||-----4----- 4-----|-----3----------------|
E||--2-------------2--|--1-------------------|


glaube nicht dass er da oben rumfummelt



E E E E E
----------------------||
----------15--17--15--||
------15--------------||
--13------------------||

[URL]http://www.youtube.com/watch?v=9wH6pXtck8Q[/url]


in dem video sieht man dass er nicht am 13 bund werkelt.
 
mainzel99

mainzel99

Well-Known Member
Bassix
ß68.576
oh ja! ...erstaunlich: ich kanns in dem Video (hat ich schonmal kurz reingeguckt - aber dann voreilig wegen der Tonquali verworfen) bsser hören als vom Original [:O!][?]
 
 

Oben Unten