SKA-P - Cannabis / Legalizacion

siph

New Member
Bassix
ß0
wenn du die tabs zu "El vals del obrero" auch brauchst, sag bescheid.

Code:
Cannabis
Ska-p
by burning.guy


Couplet 1 (I saco un papelillo...):
Pas de basse


Partie Instru.:
-----------|---------|-----------|-----0---|-----------|---------|-----------|-2-0---|
-----------|---------|-0-0-0-0-0-|-4-4---4-|-----------|---------|-0-0-0-0-0-|-----4-|
-3-3-3-3---|---------|-----------|---------|-3-3-3-3---|---------|-----------|-------|
---------3-|-3-3-3-3-|-----------|---------|---------3-|-3-3-3-3-|-----------|-------|

-----------|---------|-----------|-----0---|-----------|---------|-----------|-------|
-----------|---------|-0-0-0-0-0-|-4-4---4-|-----------|---------|-0-0-0-0-0-|-0-0-0-|
-3-3-3-3---|---------|-----------|---------|-3-3-3-3---|---------|-----------|-------|
---------3-|-3-3-3-3-|-----------|---------|---------3-|-3-3-3-3-|-----------|-------|


Couplet 2:
-----|-------|-----|---------|-----|-----|-----|---|
---0-|---0---|-0---|-0---0---|-----|-----|-----|---|
-----|-----0-|---0-|---0---4-|-3---|-3---|-3---|-3-|
-3---|-3-----|-----|---------|---3-|---3-|---3-|---|

-----|-------|-----|---------|-----|-----|-----|---|---|---|---|---|---|
---0-|---0---|-0---|-0---0---|-----|-----|-----|---|---|---|---|---|-0-|
-----|-----0-|---0-|---0---4-|-3---|-3---|-3---|-3-|---|-0-|-3-|---|---|
-3---|-3-----|-----|---------|---3-|---3-|---3-|---|-3-|---|---|-3-|---|


Refrain (Legalegalizacion):
-7-|---------|---------|---------|---------|
---|---------|-----2---|-0-0-4-0-|-0-0-4-0-|
---|-----2---|-3-3---3-|---------|---------|
---|-3-3---3-|---------|---------|---------|

---------|---------|---------|---------|
---------|-----2---|-0-0-4-0-|-0-0-4-0-| X3
-----2---|-3-3---3-|---------|---------|
-3-3---3-|---------|---------|---------|


Bridge
-------|-----0-|-----2-----|-----------|-------|-----0-|---|
-----0-|---2---|-0-4---4-0-|-4-0-4-----|-----0-|---2---|-0-|
---2---|-3-----|-----------|-------3-0-|---2---|-3-----|---|
-3-----|-------|-----------|-----------|-3-----|-------|---|


Partie Instru.:
-----------|---------|-----------|-----0---|
-----------|---------|-0-0-0-0-0-|-4-4---4-|
-3-3-3-3---|---------|-----------|---------|
---------3-|-3-3-3-3-|-----------|---------|

-----------|---------|-----------|-2-0---|-----------|---------|-----------|-----0---|
-----------|---------|-0-0-0-0-0-|-----4-|-----------|---------|-0-0-0-0-0-|-4-4---4-|
-3-3-3-3---|---------|-----------|-------|-3-3-3-3---|---------|-----------|---------|
---------3-|-3-3-3-3-|-----------|-------|---------3-|-3-3-3-3-|-----------|---------|

-----------|---------|-----------|-------|
-----------|---------|-0-0-0-0-0-|-0-0-0-|
-3-3-3-3---|---------|-----------|-------|
---------3-|-3-3-3-3-|-----------|-------|

Couplet 3:
Comme Couplet 2


Refrain


Partie Instru.:
-----------|---------|-----------|-----0---|
-----------|---------|-0-0-0-0-0-|-4-4---4-|
-3-3-3-3---|---------|-----------|---------|
---------3-|-3-3-3-3-|-----------|---------|

-----------|---------|-----------|-2-0---|-----------|---------|-----------|-----0---|
-----------|---------|-0-0-0-0-0-|-----4-|-----------|---------|-0-0-0-0-0-|-4-4---4-|
-3-3-3-3---|---------|-----------|-------|-3-3-3-3---|---------|-----------|---------|
---------3-|-3-3-3-3-|-----------|-------|---------3-|-3-3-3-3-|-----------|---------|

-----------|---------|---|
-----------|---------|-0-|
-3-3-3-3---|---------|---|
---------3-|-3-3-3-3-|---|


Solo Guitare:
-------|--------|---------|---------|---------|---------|---------|---------|
-------|-----2--|-0-0-4-0-|-0-0-4-0-|---------|-----2---|---------|---------|
---2---|-3-3---3|---------|---------|-----2---|-3-3---3-|-----0---|-0-0-3-0-|
-3---3-|--------|---------|---------|-3-3---3-|---------|-2-2---2-|---------|

--------|---------|---------|---------|---------|---------|---------|
-----2--|-0-0-4-0-|-0-0-4-0-|---------|-----2---|---------|---------|  X2
-3-3---3|---------|---------|-----2---|-3-3---3-|-----0---|-0-0-3-0-|
--------|---------|---------|-3-3---3-|---------|-2-2---2-|---------|

-------|-----0-|---|
-----0-|---2---|-0-|
---2---|-3-----|---|
-3-----|-------|---|


Refrain (Yo Te Quiero):
-7-|---------|---------|---------|---------|
---|---------|-----2---|-0-0-4-0-|-0-0-4-0-|
---|-----2---|-3-3---3-|---------|---------|
---|-3-3---3-|---------|---------|---------|

---------|---------|---------|---------|    |---|
---------|-----2---|-0-0-4-0-|-0-0-4-0-| X7 |---|
-----2---|-3-3---3-|---------|---------|    |---|
-3-3---3-|---------|---------|---------|    |-3-|


Partie Instru:
Rien au début puis:
-----|---|---|---|-----------|---------|-----------|-----0-2-|-----------|---------|---|
-----|---|---|---|-----------|---------|-0-0-0-0-0-|-4-4-----|-----------|---------|-0-|
-7/0-|---|---|---|---------3-|-3-3-3-3-|-----------|---------|---------3-|-3-3-3-3-|---|
-----|---|---|---|-3-3-3-3---|---------|-----------|---------|-3-3-3-3---|---------|---|

-----------|---------|-----------|-----0-4-|-----------|---------|-----------|-2-0---|
-----------|---------|-0-0-0-0-0-|-4-4-----|-----------|---------|-0-0-0-0-0-|-----4-|  X2
-3-3-3-3---|---------|-----------|---------|-3-3-3-3---|---------|-----------|-------|
---------3-|-3-3-3-3-|-----------|---------|---------3-|-3-3-3-3-|-----------|-------|


Fin (legalega, legalega, legalizacion...)
---|---|-----------|-----------|-------|-----|
-0-|-0-|-----------|-0-0-0-0-0-|-------|-----| X4 (sauf les 2 premiers)
---|---|-----------|-----------|-3-3-3-|-3-3-|
---|---|-3-3-3-3-3-|-----------|-------|-----|

-------|-----|-5-3-0-3-0---0---|---------------|---------0-|
-------|---0-|-----------3---3-|-0-3-0---0-----|-----0-3---| (très vite)
-3-3-3-|-3---|-----------------|-------3---3-1-|-1-3-------|
-------|-----|-----------------|---------------|-----------|
 

boysetsfire

New Member
Bassix
ß330
Ein Freund von mir behauptete das SKA-P... (Achtung lautschrift) eskäip... quasi so wie Escape auf dem Tastatur ausgesprochen wird... Ich meinte das die SKA-P ausprochen werden...
Oder hat er doch recht???
 

siph

New Member
Bassix
ß0
wenn, dann wirds "[ES-KA-PE]" ausgesprochen, is spanisch für flüchten.
"SKA-P" is ein wortspiel aus "ska" (bzw ska-punk) und "escape"(flüchten), und man sprichts halt so aus. ich sag trotzdem "[SKA-PE]"
 

Don_P

New Member
Bassix
ß264
Soweit ich weiss kennen die spanier ska-p auch nur unter [ska-pe], aber streiten wir uns nicht ist doch egal wie man die ausspricht, hauptsache die rocken...
 
Oben Unten