Erstes Lied?

Mr.Phil

New Member
Bassix
ß240
Was war das allererste Lied, dass ihr aufm Bass gelernt habt?

Bei mir wars n einfacher Blues...
Tab:

Riff1
G|-
D|-
A|-2-4-2---------4-2-|
E|-------3b-p0-3-----|

Riff2
G|-
D|-2-4-2---------4-2-|
A|-------3b-p0-3-----|
E|-

Riff3
G|-------2-------------
D|---1-4---------2-5---
A|-2---------0-4-------
E|-

Riff4
G|
D|
A|-2-4-2----------------------------------------------|
E|-------3b-p0--0--4-4--5-5--6-6--7---5-6-7--5-3b-p0r-|

Riff1 x2
Riff2 x1
Riff1 x1
Riff3 x1
Riff4 x1
 

Nathan

New Member
Bassix
ß240
1. lied aus der musikschule war vom Clapton Layla... so daheim, weis ich es nicht mehr genau [:-)] könnt Smoke on the water gewesen sein..
 

Schmidi

New Member
Bassix
ß242
mein erstes Lied war Bette Davis Eyes. Damals inspiriert von einer in Österreich recht bekannten Showband, welche dieses Lied gecovert hat.
MFG Schmidi
 

Berni

Active Member
Bassix
ß0
Mein ALLERERSTES Lied war das erste Playback aus dem Buch [url="https://www.bassic.de/forum/topic.asp?TOPIC_ID=14773826"]Bass for Beginners[/url].
Der Song bestand lediglich aus ganzen Noten und alle auf dem 5. Bund, d.h. man konnte ihn schon nach 10 Minuten spielen, nachdem man das erste mal einen Bass in Händen gehalten hat.
Hat aber dennoch extrem viel Spaß gemacht, was zwar nicht an den Bassspielkünsten sondern eher der schönen flotten Melodie liegt, aber was soll's.
Spaß [-)] Motivation
 

siph

New Member
Bassix
ß0
bei mir wars der Basslauf zu "Deutschland" von "Slime":
G|---------2-2-2-2-|-2---------------|-----------------|-----------------|
D|-0---------------|-----3---0-------|---------0-------|-----2-----------|
A|-----------------|-----------------|-0---3-----------|-3-------0-------|
E|-----------------|-----------------|-----------------|-----------------|
 

Humpty

Member
Bassix
ß240
Wenn man von den vielen kleinen Übungen absieht dürfte es bei mir Black Sabbath - Electric Funeral gewesen sein, genau weiß ich das aber nimmer.
 

Ahasver

Member
Bassix
ß250
Police - Every Breath You Take
und
Beatles - Let It Be.

Mir war nicht bewusst, dass ich mich an zwei Basslegende gewagt hatte, war ja aber auch nicht so schwer.
 
Oben