King Crimson - The Construkction of Light

karma

New Member
Bassix
ß240
hallo leute. the construktion of light ist ein fuer bassspiel sehr kniffliger track. ich bin im moment dabei, die basslinie rauszuhören, aber tue mir dabei recht schwer, habe lediglich ein paar takte und bei manchen bin ich mir nichtmal zu hundert prozent sicher. normalerweile habe ich keine probleme sachen rauszuhören, weil ich eine zeit lang nichts anderes gemacht habe. naja, vermutlich faellts mir schwer, weils schon ein schweres stück ist.

wollte fragen, ob jemand tabs dazu hat, oder beim raushören helfen kann. Die ersten takte des stückes sind in 7/8.

und gehen etwa so:

sowas : "1---" = eine achtel. das ganze bei etwa 168 viertel pro min.
aber ganz so schnell bekomme ich es noch nicht hin.

g |----------------------------|----------------------------|
d |------------3-------1-------|------------3---------------|
a |----2---1-------4-----------|----2---1-------4-----------|
e |0---------------------------|0---------------------------|


g |----------------------------|----------------------------|
d |------------3-------1-------|----3-------2---3---2-------|
a |----2---1-------4-----------|4-------1---------------4---|
e |0-----------------------3---|----------------------------|


habe selber mal nach tabs gesucht, aber nichts gefunden.


ps: auch an alle, die nichts beitragen möchten *g*: the construkction of light ist ein sehr gutes stück, ich kann es jedem empfehlen, es sich mal anzuhören. bitte helft mir *g*
 
Oben