Smells Like Teen Spirit

chefschlepper

Active Member
Bassix
ß311
im intro / refrain
--------------------------------------------------
--------------------------------------------------
--------------1--1-1------------------4--4-4------
--1---1--1------------1----4---4-4-------------4--

und während der strophe

------------------------------------
------------------------------------
----------1-1-1-----------4-4-4-----
--1-1-1-1-------1-4-4-4-4-------4---

durchgeachtelt.
so wars doch, oder? [:D][:-P]
 

siph

New Member
Bassix
ß0
also ich spiel während der strophe:

-------------------------------
-------------------------------
--------1-1-1-0--------4-4-4-0-
1-1-1-1--------4-4-4-4---------
 

mik0r0r

Member
Bassix
ß285
------------------------------
------------------------------
--------1-1-1-1/3------4-4-4-3
-1-1-1-----------4-4-4--------

also eigentlich wie die vorherigen (rhytmus halt selber rausfinden) aber ich bin mir relativ sicher das das c (also 3 auf a seite) dabei is
 

astro

Active Member
Bassix
ß246
Zitat:Original erstellt von: mik0r0r

------------------------------
------------------------------
--------1-1-1-1/3------4-4-4-3
-1-1-1-----------4-4-4--------

also eigentlich wie die vorherigen (rhytmus halt selber rausfinden) aber ich bin mir relativ sicher das das c (also 3 auf a seite) dabei is
Der Meinung war ich bisher auch bzw. habe ich das früher immer so gespielt. Ganz so einfach scheint der Song also nicht zu sein, irgendwie sind da die Guitar Pro-Versionen alle leicht unterschiedlich...
 

nanocyte

New Member
Bassix
ß280
naja, das lied wurde ca. 10000000 mal schon getabbt und als guitar pro version gemacht, ach, während der strophe spiel ich das (insofern ich es jemals nochmal spiel ^^):

E -1-1-1-1/6-6-6-6/4-4-4-4/9-9-9-9/

da is irgendso ein slide drin glaub ich....
 

Oben