Fingersatz-Frage - "History of a boring town"

Nico_B

New Member
Bassix
ß250
Guten Nachmittag,

ich habe Tabs für "History of a boring town" von Less Then Jake. Echt super Song, und ich kanns auch schon einigermaßen.
Ich weiß aber nicht, welcher Fingersatz jetzt am besten für...


----------------2--2---0------
----------0-2-4-----4---4-2--
------0-4--------------------
-----------------------------


...geeignet ist (wird relativ schnell gespielt). Ich hab bisher den 2. Bund immer mit Zeige- und den 4. mit Ringfinger gegriffen.
Allerdings läuft es nicht soo flüssig.
Soll ich einfach mit meinem Fingersatz weiter üben oder besser für den 4. Bund den kleinen Finger benutzen? Oder was ganz anderes?

Danke!
 
-------------------------------
------------4-7--7--4-5-4----
----4-5-7------------------7--
-5----------------------------

4 Zeigefinger
5 Mittelfinger
7 kleiner Finger
 
 

Oben Unten