Ska-P - a la mierda

Zwackel

New Member
Bassix
ß240
tag

ich such basstabs für selbiges lied von ska-p, finde aber nur scheisse...ich spiel jetzt halt so einfach n bissle was rein, aber das passt nicht wirklich.

hat vielleicht jemand tabs dafür oder zuviel zeit und lust zum raushören? ;-)
danke schon mal...
 

lambassadeur

New Member
Bassix
ß240
habz ZUFÄLLIG aufm pc, deshalb post ich einfach mal:

Gruppo/Artist: Ska-p
Album: Planeta Eskoria
Canzone/Song: A la Mierda
Tab bass by Marco er_francese@virgilio.it

intro con la chitarra ( Sol Re Mi Do, Sol Re Do Sol ) ; questi sono gli accordi presi barrati
intro by guitar ( Sol Re Mi Do, Sol Re Do Sol ) : these are the accords taken with the barrè

ritornello or chorus

G:-------------------------------------------------------------| ; segue perfettamente la chitarra, credo
D:-------------------------------------------------------------| che sia giusta.
A:--------5-5-5-5---7-7-7-7--3-3-3-3----------5-5-5--3535-353--| it perfectly follows the guitar
E:-3-3-3-----------------------------3-3-3-3-------------------|

verso o verse

G:------------------------------------------------------------| ; penso che Julio suona questo verso in questo modo, segui
D:-------------------2454-2454--2454-2454----2454--2454-------| il tempo con la canzone.
A:----2454--2454---5-----5------7-----7-----3-----3-----------| I think that Julio plays this toward in this way, E:-/3------3--------------------------------------------/3----| you follow the time with the song

interlude

G:--------------------|
D:--------------------|
A:-------5-5-5--3-3-3-|
E:-0-0-0--------------|

G:--------------------|
D:--------------------|
A:-------5-5-5--------|
E:-0-0-0--------5-5-5-|

G:--------------------|
D:--------------------|
A:-------5-5-5--3-3-3-|
E:-0-0-0--------------| per due volte; for twice

Schema canzone/structure song

intro by guitar
chorus 2x
verse 2x
chorus 2x
interlude
verse 2x il primo è senza basso
chorus 2x
interlude
chorus 4x

viel spraß beim bassen[:D]
 

Zwackel

New Member
Bassix
ß240
ok, danke euch beiden. die von lambassadeur hab ich mittlerweile auch gefunden, die passen zwar nicht so ganz, aber ich spiel jetzt einfach so n bissle was rein :-)
 

Oben