Bassline

floppo

New Member
Bassix
ß240
erst mal hallo zusammen.
nachdem ich nun schon einige einträge über das kreieren einer geilen bassline gelesen habe, möchte ich nun um folgendes bitten: kann mir dies jemand anhand eines konkreten beispieles zeigen?
also, unser stil ist eher punk, die grundtöne des powerchords des gitarristen sehen wie folgt aus: A-D-F-C . passt dies überhaupt? ich wäre sehr froh, wenn mir jemand dies schritt für schritt zeigen könnte und auch seine überlegungen aufschreibt. ich denka, anhand eines konkreten beispieles kann man das am besten lernen, obwohl sicher auch die erfahrung eine rolle spielt. also, schon mal vielen dank!


 

mono.tones

New Member
Bassix
ß0
naja... beim punk is es üblich einfach die grund töne in achteln nachzubrummen... :D

(jaja ich hör jetz schon den aufschrei... lol)

also aaaaaaaadddddddfffffffcccccccc :D

mfg mono
 

Mr.Phil

New Member
Bassix
ß240
Überleg dir einen kleinen Riff, am besten 4 oder Acht Noten, beim Punk empfehle ich 8 Achtel.
Überleg dir diesen Riff aber ohne konkrete Noten, klingt kompliziert, ist es aber nicht.
Ein extrem dumm wirkendes aber dennoch gutes Beispiel:
Grund ton - Dann eine saite und 2 bünde Höher, dann eine saite höher und 2 bünde runter, und dann wieder 2 töne rauf.
Wäre dann bei deinem ADFC-Beispiel so:
(Sorry, aber dass muss ich mit tab erklären)

ADFC ist ja das:
G|---------
D|---------
A|---5---3-
E|-5---1---

Mit obigem riff-muster

G|---------
D|-----5-7-
A|---7-----
E|-5-------

G|-----5-7-
D|---7-----
A|-5-------
E|---------

G|---------
D|-----1-3-
A|---3-----
E|-1-------

G|-----3-5-
D|---5-----
A|-3-------
E|---------

So, das ist eine gute Methode um Basslines zu bekommen.
Nur benutz dabei bitte nicht dieses Riff-Muster, denn der dritte teil harmoniert nicht mit dem vierten...

Hoffentlich konnte ich ein wenig helfen...
 

King_Lou

New Member
Bassix
ß240
Vielleicht gefällt dir das. Ist ganz einfach könnt aber hinhauen.
Ich werde Dir das ganze als MIDI in mein Soundfile reinstellen. Falls ich es schaffe [:O!]

E||----------------------|----------------------|----------------------|
B||----------------------|----------------------|----------------------|
G||----------------------|----------------------|----------------------|
D||----------------------|-----------------7----|----------------------|
A||----------------------|----------------------|--5----5----5----5----|
E||--5----5----5----5----|--5----5----5---------|----------------------|



----------------------|----------------------|----------------------|
----------------------|----------------------|----------------------|
-----------------7/---|----------------------|----------------------|
----------------------|--3----3----3----3----|--3----3----3----1----|
--5----5----5---------|----------------------|----------------------|
----------------------|----------------------|----------------------|



----------------------|----------------------||
----------------------|----------------------||
----------------------|----------------------||
----------------------|----------------------||
--3----3----3----3----|--3-------------------||
----------------------|-------0----3/---5----||
 

floppo

New Member
Bassix
ß240
tja, vielen dank leute. leider nicht so ganz das was ich gesucht habe. ich versuche einfach, gut klingede zwischentöne einzubauen. walking lines passen meinem geschmack nach nicht so gut zu punk-sound. abr trotzdem, vielen dank.
 

King_Lou

New Member
Bassix
ß240
Zitat:Original erstellt von: bassisticus

hehe guggt mal meine signatur an! [:-P]
ich kann diese line!! original tempo... hat mich nen halben tag gekostet, aber ich bin jetzt stollz auf micht *strahl*
Dann würd ich mal sagen aufnehmen und ab ins Soundfile damit [;-)]
 

El Rabino

Unnerum
Bassix
ß3.568
also ich würd dir bei punk empfehlen einfach den jeweiligen grundton( evtl. incl. der quinte) leicht angezerrt im gleichen rhytmus wie der gitarrero zu zocken, das wird am besten kommen
 
Oben Unten