Gentleman-Tabz??

lambassadeur

New Member
Bassix
ß240
Hey Freunde der gepflegt tiefen Töne,

hab mal ne Frage:

hat jemand Tabz von Gentleman bzw. weiß wo ich welche herkriege? Ich hab schon alle mir bekannten Pages abgeklappert und auch google-standard-suche und so, aber irgendwie noch GAR NIX g.funden[ooo]

also wenn einer was weiß, sagt mir b.scheid, würde mich übelst freuen mal was mitspielen zu können bei der geilen musik.

60 Hertz-ige Grüße & peace_y'all
lambassadeur
 

lambassadeur

New Member
Bassix
ß240
hmmmm... sieht schlecht aus oder?
tja, vielleicht krieg ich's ya mal g.backen was selber rauszuschreiben^^

also von "leave us alone" hab ich's schon rausg.kriegt, is aber auch nich WIRKLICH schwer g.wesen[:-)]
is halt nur auf der e-seite der 2. + 3. bund und auf der a-seite der 2. ... ziemlich easy, bin zu faul DAS jez auch noch aufzuschreiben

[:D]
 

lambassadeur

New Member
Bassix
ß240
hm... also ich find, dass das echt mal ne marktlücke is^^

also wenn ich zeit hab kann ich mal nen paar basslinien rausschreiben, sind doch nicht so schwer wie ich erst dachte bei einigen liedern...

kann aber noch was dauern[:D]
 

lambassadeur

New Member
Bassix
ß240
ok, dauert doch nich mehr, hatte grad sonst nix zu tun und mal nen paar songs g.tabbed. ich find es hört sich richtig an, aber wenn nich dann sagt b.scheid (aber bitte nich hauen, ich spiel doch grad mal nen monat^^). aaaaalso:

==========================================================
Gentleman feat. Jahmali & Daddy Rings - Ina Different Time
Taken from "Journey To Jah"


Intro:

G|----------------|
D|-2-2-2--2-------|
E|----------5-3-0-|
A|----------------|


Riff A:

G|----------------|
D|----------------|
E|0--3-3-55-------|
A|----------00-3--|


Riff B:

G|----------------|
D|---22-22--------|
E|0---------------|
A|----------0--3--|


Intro 2x
Riff A 4x
Riff B 8x
Riff A 8x
Riff B 10x
Riff A 8x
Riff B 8x
Riff A 8x
Riff B 8x
Riff A 8x (faded out)

==========================================================

Gentleman - Jah Ina Yuh Life

Chorus:

G|-----------------|-----------------|-----------------|-----------------|
D|-----------------|-----------------|-0-4--6--0-4--6--|-0-4--6--0-4--6--|
A|-0-4--6--0-4--6--|-0-4--6--0-4--6--|-----------------|-----------------|
E|-----------------|-----------------|-----------------|-----------------|


Verse:

G|------------|---------------|------------|---------------|
D|------------|------------/4-|6--6--6-6-6-|-6-6-6-6-6-6---|
A|6--6--6-6-6-|-6-6-6-6-6-6---|------------|---------------|
E|------------|---------------|------------|---------------|

==========================================================

Gentleman - Runaway

Main Riff:
G|------------------------|
D|------------0-0-0-2-2-2-|
A|0-0---0-0---------------|
E|----3-----3-------------|

Variation 1:
G|------------------------|
D|------------0-0---2-2---|
A|0-0---0-0---------------|
E|------------------------|

Variation 2:
G|------------------------|
D|----------------------2-|
A|0-0---0-0---0-0---0-0---|
E|------------------------|

==========================================================

Gentleman - Leave Us Alone


1u2u3u4u 1u2u3u4u 1u2u3u4u 1u2u3u4u
G|--------|--------|--------|--------|
D|--------|--------|--------|--------|
A|2-2-2-2-|2-2-2-2-|2-2-2-2-|--------|
E|-------2|-------2|-------2|3---2---|

==========================================================

so, ich hoffe mal das hilft euch und (VOR ALLEM^^) nen paar leute animiert sind auch mal die schwierigeren lieder von gentleman zu tabben, da wär ich echt mal dankbar :-)

peace_ya
l'ambassadeur
 

lambassadeur

New Member
Bassix
ß240
aaah, bin seit längerem mal wieder hier und es gibt immer noch nüx neues zu gentleman? hmm, vielleicht find ich bald mal zeit auch die etwas komplizierteren basslines zu tabben... aber wär schon geil, wenn sonst jemand auch was hat, bin ya nich so der pro[:II][:D]
 
Oben Unten